ISO-10303-21;
HEADER;
FILE_DESCRIPTION (( 'STEP AP203' ),
    '1' );
FILE_NAME ('ring.step',
    '2024-12-20T13:40:04',
    ( '' ),
    ( '' ),
    'SwSTEP 2.0',
    'SolidWorks 2024',
    '' );
FILE_SCHEMA (( 'CONFIG_CONTROL_DESIGN' ));
ENDSEC;

DATA;
#1 = DIRECTION ( 'NONE',  ( 0.000000000000000000, 0.000000000000000000, 1.000000000000000000 ) ) ;
#2 = DIRECTION ( 'NONE',  ( 1.000000000000000000, 0.000000000000000000, 0.000000000000000000 ) ) ;
#3 = DIRECTION ( 'NONE',  ( 0.000000000000000000, 0.000000000000000000, 1.000000000000000000 ) ) ;
#4 = EDGE_CURVE ( 'NONE', #169, #47, #148, .T. ) ;
#5 = CARTESIAN_POINT ( 'NONE',  ( 31.59999999999999787, 3.869883885305635257E-15, 10.00000000000000000 ) ) ;
#6 = APPROVAL_ROLE ( '' ) ;
#7 = ORIENTED_EDGE ( 'NONE', *, *, #315, .F. ) ;
#8 = DATE_AND_TIME ( #170, #109 ) ;
#9 = EDGE_LOOP ( 'NONE', ( #180, #77 ) ) ;
#10 = ADVANCED_FACE ( 'NONE', ( #116, #171 ), #398, .F. ) ;
#11 = PERSON_AND_ORGANIZATION_ROLE ( 'classification_officer' ) ;
#12 = VERTEX_POINT ( 'NONE', #371 ) ;
#13 = AXIS2_PLACEMENT_3D ( 'NONE', #91, #246, #157 ) ;
#14 = AXIS2_PLACEMENT_3D ( 'NONE', #290, #131, #260 ) ;
#15 = PERSON_AND_ORGANIZATION_ROLE ( 'creator' ) ;
#16 = ORIENTED_EDGE ( 'NONE', *, *, #227, .T. ) ;
#17 = COORDINATED_UNIVERSAL_TIME_OFFSET ( 1, 0, .AHEAD. ) ;
#18 = ORIENTED_EDGE ( 'NONE', *, *, #333, .F. ) ;
#19 = VERTEX_POINT ( 'NONE', #82 ) ;
#20 = AXIS2_PLACEMENT_3D ( 'NONE', #181, #245, #244 ) ;
#21 = DIRECTION ( 'NONE',  ( -1.000000000000000000, 0.000000000000000000, 0.000000000000000000 ) ) ;
#22 = DIRECTION ( 'NONE',  ( -0.000000000000000000, -0.000000000000000000, -1.000000000000000000 ) ) ;
#23 = ADVANCED_FACE ( 'NONE', ( #173, #72 ), #200, .T. ) ;
#24 = DIRECTION ( 'NONE',  ( 1.000000000000000000, 0.000000000000000000, 0.000000000000000000 ) ) ;
#25 = AXIS2_PLACEMENT_3D ( 'NONE', #123, #279, #153 ) ;
#26 = FACE_OUTER_BOUND ( 'NONE', #222, .T. ) ;
#27 = PRODUCT ( 'ring', 'ring', '', ( #390 ) ) ;
#28 = CARTESIAN_POINT ( 'NONE',  ( 0.000000000000000000, 0.000000000000000000, 19.50000000000000000 ) ) ;
#29 = DIRECTION ( 'NONE',  ( 0.000000000000000000, 0.000000000000000000, 1.000000000000000000 ) ) ;
#30 = ORIENTED_EDGE ( 'NONE', *, *, #340, .F. ) ;
#31 = LINE ( 'NONE', #160, #292 ) ;
#32 = ORIENTED_EDGE ( 'NONE', *, *, #315, .T. ) ;
#33 = CIRCLE ( 'NONE', #362, 35.25000000000000000 ) ;
#34 = CARTESIAN_POINT ( 'NONE',  ( -38.18999999999999773, 0.000000000000000000, 19.50000000000000000 ) ) ;
#35 = EDGE_CURVE ( 'NONE', #235, #99, #232, .T. ) ;
#36 = CYLINDRICAL_SURFACE ( 'NONE', #392, 35.25000000000000000 ) ;
#37 = ORIENTED_EDGE ( 'NONE', *, *, #303, .T. ) ;
#38 = CARTESIAN_POINT ( 'NONE',  ( 0.000000000000000000, 0.000000000000000000, 19.50000000000000000 ) ) ;
#39 = ORIENTED_EDGE ( 'NONE', *, *, #51, .F. ) ;
#40 = CIRCLE ( 'NONE', #370, 35.25000000000000000 ) ;
#41 = FACE_OUTER_BOUND ( 'NONE', #139, .T. ) ;
#42 = ORIENTED_EDGE ( 'NONE', *, *, #35, .T. ) ;
#43 = CARTESIAN_POINT ( 'NONE',  ( 0.000000000000000000, 0.000000000000000000, 19.50000000000000000 ) ) ;
#44 = ORIENTED_EDGE ( 'NONE', *, *, #259, .T. ) ;
#45 = EDGE_LOOP ( 'NONE', ( #388, #400 ) ) ;
#46 = CC_DESIGN_PERSON_AND_ORGANIZATION_ASSIGNMENT ( #365, #15, ( #122 ) ) ;
#47 = VERTEX_POINT ( 'NONE', #83 ) ;
#48 = CARTESIAN_POINT ( 'NONE',  ( -38.18999999999999773, 0.000000000000000000, 0.000000000000000000 ) ) ;
#49 = LOCAL_TIME ( 14, 40, 4.000000000000000000, #363 ) ;
#50 = APPROVAL_PERSON_ORGANIZATION ( #76, #283, #6 ) ;
#51 = EDGE_CURVE ( 'NONE', #320, #127, #403, .T. ) ;
#52 = CARTESIAN_POINT ( 'NONE',  ( 0.000000000000000000, 0.000000000000000000, -10.00000000000000000 ) ) ;
#53 = CARTESIAN_POINT ( 'NONE',  ( 31.59999999999999787, 3.869883885305635257E-15, 10.00000000000000000 ) ) ;
#54 = DIRECTION ( 'NONE',  ( -0.000000000000000000, -0.000000000000000000, -1.000000000000000000 ) ) ;
#55 = PERSON_AND_ORGANIZATION ( #95, #176 ) ;
#56 = CIRCLE ( 'NONE', #252, 31.59999999999999787 ) ;
#57 = FACE_OUTER_BOUND ( 'NONE', #206, .T. ) ;
#58 = EDGE_CURVE ( 'NONE', #273, #163, #118, .T. ) ;
#59 = CARTESIAN_POINT ( 'NONE',  ( 38.18999999999999773, 4.676926125943741082E-15, 0.000000000000000000 ) ) ;
#60 = ORIENTED_EDGE ( 'NONE', *, *, #128, .T. ) ;
#61 = DIRECTION ( 'NONE',  ( 1.000000000000000000, 0.000000000000000000, 0.000000000000000000 ) ) ;
#62 = VERTEX_POINT ( 'NONE', #216 ) ;
#63 = CARTESIAN_POINT ( 'NONE',  ( 35.25000000000000000, 4.316879966994420283E-15, 10.00000000000000000 ) ) ;
#64 = VECTOR ( 'NONE', #338, 1000.000000000000000 ) ;
#65 = EDGE_CURVE ( 'NONE', #66, #306, #102, .T. ) ;
#66 = VERTEX_POINT ( 'NONE', #93 ) ;
#67 = DIRECTION ( 'NONE',  ( 1.000000000000000000, 0.000000000000000000, 0.000000000000000000 ) ) ;
#68 = VERTEX_POINT ( 'NONE', #344 ) ;
#69 = DIRECTION ( 'NONE',  ( 1.000000000000000000, 0.000000000000000000, 0.000000000000000000 ) ) ;
#70 = ORIENTED_EDGE ( 'NONE', *, *, #197, .F. ) ;
#71 = CARTESIAN_POINT ( 'NONE',  ( 0.000000000000000000, 0.000000000000000000, 19.50000000000000000 ) ) ;
#72 = FACE_BOUND ( 'NONE', #230, .T. ) ;
#73 = PRODUCT_RELATED_PRODUCT_CATEGORY ( 'detail', '', ( #27 ) ) ;
#74 = PERSON_AND_ORGANIZATION ( #95, #176 ) ;
#75 = ORIENTED_EDGE ( 'NONE', *, *, #58, .T. ) ;
#76 = PERSON_AND_ORGANIZATION ( #95, #176 ) ;
#77 = ORIENTED_EDGE ( 'NONE', *, *, #4, .T. ) ;
#78 = DIRECTION ( 'NONE',  ( -1.000000000000000000, 0.000000000000000000, 0.000000000000000000 ) ) ;
#79 = ORIENTED_EDGE ( 'NONE', *, *, #231, .F. ) ;
#80 = EDGE_CURVE ( 'NONE', #62, #19, #248, .T. ) ;
#81 = COORDINATED_UNIVERSAL_TIME_OFFSET ( 1, 0, .AHEAD. ) ;
#82 = CARTESIAN_POINT ( 'NONE',  ( 35.25000000000000711, 4.316879966994421072E-15, 10.00000000000000000 ) ) ;
#83 = CARTESIAN_POINT ( 'NONE',  ( -38.18999999999999773, 0.000000000000000000, 19.50000000000000000 ) ) ;
#84 = EDGE_CURVE ( 'NONE', #354, #12, #151, .T. ) ;
#85 = UNCERTAINTY_MEASURE_WITH_UNIT (LENGTH_MEASURE( 1.000000000000000082E-05 ), #179, 'distance_accuracy_value', 'NONE');
#86 = FACE_BOUND ( 'NONE', #45, .T. ) ;
#87 = VECTOR ( 'NONE', #54, 1000.000000000000000 ) ;
#88 = LOCAL_TIME ( 14, 40, 4.000000000000000000, #17 ) ;
#89 = DATE_AND_TIME ( #404, #215 ) ;
#90 = CARTESIAN_POINT ( 'NONE',  ( 0.000000000000000000, 0.000000000000000000, 10.00000000000000000 ) ) ;
#91 = CARTESIAN_POINT ( 'NONE',  ( 0.000000000000000000, 0.000000000000000000, 0.000000000000000000 ) ) ;
#92 = APPROVAL_ROLE ( '' ) ;
#93 = CARTESIAN_POINT ( 'NONE',  ( -35.25000000000000000, 0.000000000000000000, 0.000000000000000000 ) ) ;
#94 = ADVANCED_FACE ( 'NONE', ( #347 ), #379, .F. ) ;
#95 = PERSON ( 'UNSPECIFIED', 'UNSPECIFIED', 'UNSPECIFIED', ('UNSPECIFIED'), ('UNSPECIFIED'), ('UNSPECIFIED') ) ;
#96 = CIRCLE ( 'NONE', #168, 35.25000000000000711 ) ;
#97 = CARTESIAN_POINT ( 'NONE',  ( 0.000000000000000000, 0.000000000000000000, 10.00000000000000000 ) ) ;
#98 = DIRECTION ( 'NONE',  ( -0.000000000000000000, -0.000000000000000000, -1.000000000000000000 ) ) ;
#99 = VERTEX_POINT ( 'NONE', #48 ) ;
#100 = FACE_OUTER_BOUND ( 'NONE', #165, .T. ) ;
#101 = FACE_OUTER_BOUND ( 'NONE', #396, .T. ) ;
#102 = CIRCLE ( 'NONE', #288, 35.25000000000000000 ) ;
#103 = CYLINDRICAL_SURFACE ( 'NONE', #301, 35.25000000000000000 ) ;
#104 = ORIENTED_EDGE ( 'NONE', *, *, #58, .F. ) ;
#105 = APPLICATION_PROTOCOL_DEFINITION ( 'international standard', 'config_control_design', 1994, #228 ) ;
#106 = CIRCLE ( 'NONE', #141, 35.25000000000000711 ) ;
#107 = EDGE_LOOP ( 'NONE', ( #305, #337, #204, #329 ) ) ;
#108 = CIRCLE ( 'NONE', #341, 35.25000000000000711 ) ;
#109 = LOCAL_TIME ( 14, 40, 4.000000000000000000, #81 ) ;
#110 = PERSON_AND_ORGANIZATION ( #95, #176 ) ;
#111 = ORIENTED_EDGE ( 'NONE', *, *, #65, .T. ) ;
#112 = EDGE_CURVE ( 'NONE', #163, #19, #108, .T. ) ;
#113 = DIRECTION ( 'NONE',  ( 0.000000000000000000, 0.000000000000000000, 1.000000000000000000 ) ) ;
#114 = APPROVAL_STATUS ( 'not_yet_approved' ) ;
#115 = CARTESIAN_POINT ( 'NONE',  ( 0.000000000000000000, 0.000000000000000000, -10.00000000000000000 ) ) ;
#116 = FACE_OUTER_BOUND ( 'NONE', #210, .T. ) ;
#117 = DIRECTION ( 'NONE',  ( -0.000000000000000000, -0.000000000000000000, -1.000000000000000000 ) ) ;
#118 = LINE ( 'NONE', #380, #334 ) ;
#119 = AXIS2_PLACEMENT_3D ( 'NONE', #90, #313, #24 ) ;
#120 = AXIS2_PLACEMENT_3D ( 'NONE', #71, #174, #78 ) ;
#121 = DIRECTION ( 'NONE',  ( 1.000000000000000000, 0.000000000000000000, 0.000000000000000000 ) ) ;
#122 = PRODUCT_DEFINITION ( 'UNKNOWN', '', #339, #256 ) ;
#123 = CARTESIAN_POINT ( 'NONE',  ( 0.000000000000000000, 0.000000000000000000, 19.50000000000000000 ) ) ;
#124 = DIRECTION ( 'NONE',  ( -0.000000000000000000, -0.000000000000000000, -1.000000000000000000 ) ) ;
#125 = VECTOR ( 'NONE', #324, 1000.000000000000000 ) ;
#126 = DIRECTION ( 'NONE',  ( 1.000000000000000000, 0.000000000000000000, 0.000000000000000000 ) ) ;
#127 = VERTEX_POINT ( 'NONE', #185 ) ;
#128 = EDGE_CURVE ( 'NONE', #306, #66, #140, .T. ) ;
#129 = DIRECTION ( 'NONE',  ( -0.000000000000000000, -0.000000000000000000, -1.000000000000000000 ) ) ;
#130 = ORIENTED_EDGE ( 'NONE', *, *, #378, .T. ) ;
#131 = DIRECTION ( 'NONE',  ( 0.000000000000000000, 0.000000000000000000, 1.000000000000000000 ) ) ;
#132 = LINE ( 'NONE', #262, #407 ) ;
#133 = AXIS2_PLACEMENT_3D ( 'NONE', #28, #284, #342 ) ;
#134 = EDGE_LOOP ( 'NONE', ( #364, #16, #296, #352 ) ) ;
#135 = PERSON_AND_ORGANIZATION ( #95, #176 ) ;
#136 = ORIENTED_EDGE ( 'NONE', *, *, #154, .F. ) ;
#137 = APPROVAL_DATE_TIME ( #8, #283 ) ;
#138 = ORIENTED_EDGE ( 'NONE', *, *, #35, .F. ) ;
#139 = EDGE_LOOP ( 'NONE', ( #79, #136, #270, #202 ) ) ;
#140 = CIRCLE ( 'NONE', #13, 35.25000000000000000 ) ;
#141 = AXIS2_PLACEMENT_3D ( 'NONE', #291, #353, #126 ) ;
#142 = ADVANCED_FACE ( 'NONE', ( #409 ), #218, .F. ) ;
#143 =( NAMED_UNIT ( * ) PLANE_ANGLE_UNIT ( ) SI_UNIT ( $, .RADIAN. ) );
#144 = ORIENTED_EDGE ( 'NONE', *, *, #201, .F. ) ;
#145 = PERSON_AND_ORGANIZATION_ROLE ( 'design_supplier' ) ;
#146 = ORIENTED_EDGE ( 'NONE', *, *, #80, .T. ) ;
#147 = ORIENTED_EDGE ( 'NONE', *, *, #333, .T. ) ;
#148 = CIRCLE ( 'NONE', #182, 38.18999999999999773 ) ;
#149 = DIRECTION ( 'NONE',  ( 0.000000000000000000, 0.000000000000000000, 1.000000000000000000 ) ) ;
#150 = CC_DESIGN_PERSON_AND_ORGANIZATION_ASSIGNMENT ( #135, #263, ( #339 ) ) ;
#151 = LINE ( 'NONE', #53, #64 ) ;
#152 = SHAPE_DEFINITION_REPRESENTATION ( #275, #389 ) ;
#153 = DIRECTION ( 'NONE',  ( -1.000000000000000000, 0.000000000000000000, 0.000000000000000000 ) ) ;
#154 = EDGE_CURVE ( 'NONE', #47, #169, #261, .T. ) ;
#155 = COORDINATED_UNIVERSAL_TIME_OFFSET ( 1, 0, .AHEAD. ) ;
#156 = CARTESIAN_POINT ( 'NONE',  ( -35.25000000000000711, 0.000000000000000000, 10.00000000000000000 ) ) ;
#157 = DIRECTION ( 'NONE',  ( 1.000000000000000000, 0.000000000000000000, 0.000000000000000000 ) ) ;
#158 = DIRECTION ( 'NONE',  ( -1.000000000000000000, 0.000000000000000000, 0.000000000000000000 ) ) ;
#159 = SECURITY_CLASSIFICATION ( '', '', #297 ) ;
#160 = CARTESIAN_POINT ( 'NONE',  ( 38.18999999999999773, 4.676926125943741082E-15, 19.50000000000000000 ) ) ;
#161 = ORIENTED_EDGE ( 'NONE', *, *, #346, .F. ) ;
#162 = DIRECTION ( 'NONE',  ( -0.000000000000000000, -0.000000000000000000, -1.000000000000000000 ) ) ;
#163 = VERTEX_POINT ( 'NONE', #156 ) ;
#164 = DIRECTION ( 'NONE',  ( 0.000000000000000000, 0.000000000000000000, 1.000000000000000000 ) ) ;
#165 = EDGE_LOOP ( 'NONE', ( #332, #224, #75, #330 ) ) ;
#166 = EDGE_CURVE ( 'NONE', #320, #354, #299, .T. ) ;
#167 = DIRECTION ( 'NONE',  ( 1.000000000000000000, 0.000000000000000000, 0.000000000000000000 ) ) ;
#168 = AXIS2_PLACEMENT_3D ( 'NONE', #254, #3, #289 ) ;
#169 = VERTEX_POINT ( 'NONE', #308 ) ;
#170 = CALENDAR_DATE ( 2024, 20, 12 ) ;
#171 = FACE_BOUND ( 'NONE', #175, .T. ) ;
#172 = CALENDAR_DATE ( 2024, 20, 12 ) ;
#173 = FACE_OUTER_BOUND ( 'NONE', #9, .T. ) ;
#174 = DIRECTION ( 'NONE',  ( -0.000000000000000000, -0.000000000000000000, -1.000000000000000000 ) ) ;
#175 = EDGE_LOOP ( 'NONE', ( #111, #60 ) ) ;
#176 = ORGANIZATION ( 'UNSPECIFIED', 'UNSPECIFIED', '' ) ;
#177 = DATE_AND_TIME ( #335, #348 ) ;
#178 = ORIENTED_EDGE ( 'NONE', *, *, #65, .F. ) ;
#179 =( LENGTH_UNIT ( ) NAMED_UNIT ( * ) SI_UNIT ( .MILLI., .METRE. ) );
#180 = ORIENTED_EDGE ( 'NONE', *, *, #154, .T. ) ;
#181 = CARTESIAN_POINT ( 'NONE',  ( 0.000000000000000000, 0.000000000000000000, 19.50000000000000000 ) ) ;
#182 = AXIS2_PLACEMENT_3D ( 'NONE', #43, #113, #272 ) ;
#183 = CIRCLE ( 'NONE', #253, 38.18999999999999773 ) ;
#184 = DIRECTION ( 'NONE',  ( 1.000000000000000000, 0.000000000000000000, 0.000000000000000000 ) ) ;
#185 = CARTESIAN_POINT ( 'NONE',  ( -31.59999999999999787, 0.000000000000000000, -10.00000000000000000 ) ) ;
#186 = ADVANCED_FACE ( 'NONE', ( #26 ), #282, .F. ) ;
#187 = CARTESIAN_POINT ( 'NONE',  ( 0.000000000000000000, 0.000000000000000000, 10.00000000000000000 ) ) ;
#188 = DIRECTION ( 'NONE',  ( 0.000000000000000000, 0.000000000000000000, 1.000000000000000000 ) ) ;
#189 = DIRECTION ( 'NONE',  ( -1.000000000000000000, 0.000000000000000000, 0.000000000000000000 ) ) ;
#190 = ADVANCED_FACE ( 'NONE', ( #57, #86 ), #372, .T. ) ;
#191 = FACE_OUTER_BOUND ( 'NONE', #239, .T. ) ;
#192 = CIRCLE ( 'NONE', #376, 31.59999999999999787 ) ;
#193 = CARTESIAN_POINT ( 'NONE',  ( 0.000000000000000000, 0.000000000000000000, -10.00000000000000000 ) ) ;
#194 = CC_DESIGN_APPROVAL ( #251, ( #159 ) ) ;
#195 = EDGE_LOOP ( 'NONE', ( #44, #146, #147, #104 ) ) ;
#196 = CARTESIAN_POINT ( 'NONE',  ( -35.25000000000000711, 0.000000000000000000, 19.50000000000000000 ) ) ;
#197 = EDGE_CURVE ( 'NONE', #62, #273, #314, .T. ) ;
#198 = DIRECTION ( 'NONE',  ( 0.000000000000000000, 0.000000000000000000, 1.000000000000000000 ) ) ;
#199 = AXIS2_PLACEMENT_3D ( 'NONE', #360, #241, #369 ) ;
#200 = PLANE ( 'NONE',  #242 ) ;
#201 = EDGE_CURVE ( 'NONE', #68, #287, #40, .T. ) ;
#202 = ORIENTED_EDGE ( 'NONE', *, *, #340, .T. ) ;
#203 = PERSON_AND_ORGANIZATION ( #95, #176 ) ;
#204 = ORIENTED_EDGE ( 'NONE', *, *, #201, .T. ) ;
#205 = DIRECTION ( 'NONE',  ( 0.000000000000000000, 0.000000000000000000, 1.000000000000000000 ) ) ;
#206 = EDGE_LOOP ( 'NONE', ( #323, #18 ) ) ;
#207 = VECTOR ( 'NONE', #310, 1000.000000000000000 ) ;
#208 = APPROVAL_PERSON_ORGANIZATION ( #55, #251, #92 ) ;
#209 = DATE_AND_TIME ( #236, #88 ) ;
#210 = EDGE_LOOP ( 'NONE', ( #30, #138 ) ) ;
#211 = CC_DESIGN_PERSON_AND_ORGANIZATION_ASSIGNMENT ( #74, #145, ( #339 ) ) ;
#212 = CARTESIAN_POINT ( 'NONE',  ( -31.59999999999999787, 0.000000000000000000, 10.00000000000000000 ) ) ;
#213 = CARTESIAN_POINT ( 'NONE',  ( 0.000000000000000000, 0.000000000000000000, 10.00000000000000000 ) ) ;
#214 = VECTOR ( 'NONE', #98, 1000.000000000000000 ) ;
#215 = LOCAL_TIME ( 14, 40, 4.000000000000000000, #155 ) ;
#216 = CARTESIAN_POINT ( 'NONE',  ( 35.25000000000000711, 4.316879966994421072E-15, 19.50000000000000000 ) ) ;
#217 = MANIFOLD_SOLID_BREP ( 'Boss.-Extru.2', #361 ) ;
#218 = CYLINDRICAL_SURFACE ( 'NONE', #405, 31.59999999999999787 ) ;
#219 = DIRECTION ( 'NONE',  ( -1.000000000000000000, 0.000000000000000000, 0.000000000000000000 ) ) ;
#220 = CARTESIAN_POINT ( 'NONE',  ( -35.25000000000000000, 0.000000000000000000, -10.00000000000000000 ) ) ;
#221 = FACE_BOUND ( 'NONE', #367, .T. ) ;
#222 = EDGE_LOOP ( 'NONE', ( #391, #302, #326, #39 ) ) ;
#223 = CARTESIAN_POINT ( 'NONE',  ( -31.59999999999999787, 0.000000000000000000, 10.00000000000000000 ) ) ;
#224 = ORIENTED_EDGE ( 'NONE', *, *, #197, .T. ) ;
#225 = AXIS2_PLACEMENT_3D ( 'NONE', #384, #351, #61 ) ;
#226 = CARTESIAN_POINT ( 'NONE',  ( 0.000000000000000000, 0.000000000000000000, 0.000000000000000000 ) ) ;
#227 = EDGE_CURVE ( 'NONE', #354, #320, #56, .T. ) ;
#228 = APPLICATION_CONTEXT ( 'configuration controlled 3d designs of mechanical parts and assemblies' ) ;
#229 = CARTESIAN_POINT ( 'NONE',  ( 0.000000000000000000, 0.000000000000000000, 10.00000000000000000 ) ) ;
#230 = EDGE_LOOP ( 'NONE', ( #336, #70 ) ) ;
#231 = EDGE_CURVE ( 'NONE', #169, #235, #31, .T. ) ;
#232 = CIRCLE ( 'NONE', #267, 38.18999999999999773 ) ;
#233 = PERSON_AND_ORGANIZATION ( #95, #176 ) ;
#234 = AXIS2_PLACEMENT_3D ( 'NONE', #264, #205, #359 ) ;
#235 = VERTEX_POINT ( 'NONE', #59 ) ;
#236 = CALENDAR_DATE ( 2024, 20, 12 ) ;
#237 = ORIENTED_EDGE ( 'NONE', *, *, #366, .T. ) ;
#238 = PERSON_AND_ORGANIZATION_ROLE ( 'design_owner' ) ;
#239 = EDGE_LOOP ( 'NONE', ( #258, #178, #237, #32 ) ) ;
#240 = APPROVAL_DATE_TIME ( #209, #307 ) ;
#241 = DIRECTION ( 'NONE',  ( 0.000000000000000000, 0.000000000000000000, 1.000000000000000000 ) ) ;
#242 = AXIS2_PLACEMENT_3D ( 'NONE', #298, #394, #345 ) ;
#243 = ADVANCED_FACE ( 'NONE', ( #101 ), #325, .T. ) ;
#244 = DIRECTION ( 'NONE',  ( 1.000000000000000000, 0.000000000000000000, 0.000000000000000000 ) ) ;
#245 = DIRECTION ( 'NONE',  ( 0.000000000000000000, 0.000000000000000000, 1.000000000000000000 ) ) ;
#246 = DIRECTION ( 'NONE',  ( 0.000000000000000000, 0.000000000000000000, 1.000000000000000000 ) ) ;
#247 = CIRCLE ( 'NONE', #225, 31.59999999999999787 ) ;
#248 = LINE ( 'NONE', #276, #207 ) ;
#249 = DIRECTION ( 'NONE',  ( 1.000000000000000000, 0.000000000000000000, 0.000000000000000000 ) ) ;
#250 = FACE_OUTER_BOUND ( 'NONE', #265, .T. ) ;
#251 = APPROVAL ( #278, 'UNSPECIFIED' ) ;
#252 = AXIS2_PLACEMENT_3D ( 'NONE', #97, #356, #2 ) ;
#253 = AXIS2_PLACEMENT_3D ( 'NONE', #226, #198, #69 ) ;
#254 = CARTESIAN_POINT ( 'NONE',  ( 0.000000000000000000, 0.000000000000000000, 19.50000000000000000 ) ) ;
#255 = CC_DESIGN_SECURITY_CLASSIFICATION ( #159, ( #339 ) ) ;
#256 = DESIGN_CONTEXT ( 'detailed design', #228, 'design' ) ;
#257 = CYLINDRICAL_SURFACE ( 'NONE', #286, 35.25000000000000711 ) ;
#258 = ORIENTED_EDGE ( 'NONE', *, *, #350, .F. ) ;
#259 = EDGE_CURVE ( 'NONE', #273, #62, #96, .T. ) ;
#260 = DIRECTION ( 'NONE',  ( 1.000000000000000000, 0.000000000000000000, -0.000000000000000000 ) ) ;
#261 = CIRCLE ( 'NONE', #20, 38.18999999999999773 ) ;
#262 = CARTESIAN_POINT ( 'NONE',  ( -35.25000000000000000, 0.000000000000000000, 10.00000000000000000 ) ) ;
#263 = PERSON_AND_ORGANIZATION_ROLE ( 'creator' ) ;
#264 = CARTESIAN_POINT ( 'NONE',  ( 0.000000000000000000, 0.000000000000000000, 0.000000000000000000 ) ) ;
#265 = EDGE_LOOP ( 'NONE', ( #7, #144 ) ) ;
#266 = ADVANCED_FACE ( 'NONE', ( #100 ), #257, .F. ) ;
#267 = AXIS2_PLACEMENT_3D ( 'NONE', #280, #375, #249 ) ;
#268 = ORIENTED_EDGE ( 'NONE', *, *, #4, .F. ) ;
#269 = DIRECTION ( 'NONE',  ( -0.000000000000000000, -0.000000000000000000, -1.000000000000000000 ) ) ;
#270 = ORIENTED_EDGE ( 'NONE', *, *, #346, .T. ) ;
#271 = CC_DESIGN_PERSON_AND_ORGANIZATION_ASSIGNMENT ( #110, #238, ( #27 ) ) ;
#272 = DIRECTION ( 'NONE',  ( 1.000000000000000000, 0.000000000000000000, 0.000000000000000000 ) ) ;
#273 = VERTEX_POINT ( 'NONE', #196 ) ;
#274 = AXIS2_PLACEMENT_3D ( 'NONE', #317, #383, #158 ) ;
#275 = PRODUCT_DEFINITION_SHAPE ( 'NONE', 'NONE',  #122 ) ;
#276 = CARTESIAN_POINT ( 'NONE',  ( 35.25000000000000711, 4.316879966994421072E-15, 19.50000000000000000 ) ) ;
#277 = ADVANCED_FACE ( 'NONE', ( #381 ), #36, .T. ) ;
#278 = APPROVAL_STATUS ( 'not_yet_approved' ) ;
#279 = DIRECTION ( 'NONE',  ( -0.000000000000000000, -0.000000000000000000, -1.000000000000000000 ) ) ;
#280 = CARTESIAN_POINT ( 'NONE',  ( 0.000000000000000000, 0.000000000000000000, 0.000000000000000000 ) ) ;
#281 = AXIS2_PLACEMENT_3D ( 'NONE', #213, #188, #316 ) ;
#282 = CYLINDRICAL_SURFACE ( 'NONE', #399, 31.59999999999999787 ) ;
#283 = APPROVAL ( #114, 'UNSPECIFIED' ) ;
#284 = DIRECTION ( 'NONE',  ( 0.000000000000000000, 0.000000000000000000, 1.000000000000000000 ) ) ;
#285 = DIRECTION ( 'NONE',  ( -0.000000000000000000, -0.000000000000000000, -1.000000000000000000 ) ) ;
#286 = AXIS2_PLACEMENT_3D ( 'NONE', #38, #285, #293 ) ;
#287 = VERTEX_POINT ( 'NONE', #220 ) ;
#288 = AXIS2_PLACEMENT_3D ( 'NONE', #311, #149, #121 ) ;
#289 = DIRECTION ( 'NONE',  ( 1.000000000000000000, 0.000000000000000000, 0.000000000000000000 ) ) ;
#290 = CARTESIAN_POINT ( 'NONE',  ( 0.000000000000000000, 0.000000000000000000, -10.00000000000000000 ) ) ;
#291 = CARTESIAN_POINT ( 'NONE',  ( 0.000000000000000000, 0.000000000000000000, 10.00000000000000000 ) ) ;
#292 = VECTOR ( 'NONE', #129, 1000.000000000000000 ) ;
#293 = DIRECTION ( 'NONE',  ( -1.000000000000000000, 0.000000000000000000, 0.000000000000000000 ) ) ;
#294 = DIRECTION ( 'NONE',  ( -1.000000000000000000, 0.000000000000000000, 0.000000000000000000 ) ) ;
#295 = CC_DESIGN_PERSON_AND_ORGANIZATION_ASSIGNMENT ( #203, #11, ( #159 ) ) ;
#296 = ORIENTED_EDGE ( 'NONE', *, *, #51, .T. ) ;
#297 = SECURITY_CLASSIFICATION_LEVEL ( 'unclassified' ) ;
#298 = CARTESIAN_POINT ( 'NONE',  ( 0.000000000000000000, 0.000000000000000000, 19.50000000000000000 ) ) ;
#299 = CIRCLE ( 'NONE', #119, 31.59999999999999787 ) ;
#300 = APPROVAL_STATUS ( 'not_yet_approved' ) ;
#301 = AXIS2_PLACEMENT_3D ( 'NONE', #229, #269, #294 ) ;
#302 = ORIENTED_EDGE ( 'NONE', *, *, #84, .T. ) ;
#303 = EDGE_CURVE ( 'NONE', #127, #12, #192, .T. ) ;
#304 = DATE_TIME_ROLE ( 'creation_date' ) ;
#305 = ORIENTED_EDGE ( 'NONE', *, *, #128, .F. ) ;
#306 = VERTEX_POINT ( 'NONE', #319 ) ;
#307 = APPROVAL ( #300, 'UNSPECIFIED' ) ;
#308 = CARTESIAN_POINT ( 'NONE',  ( 38.18999999999999773, 4.676926125943741082E-15, 19.50000000000000000 ) ) ;
#309 = APPROVAL_PERSON_ORGANIZATION ( #233, #307, #393 ) ;
#310 = DIRECTION ( 'NONE',  ( -0.000000000000000000, -0.000000000000000000, -1.000000000000000000 ) ) ;
#311 = CARTESIAN_POINT ( 'NONE',  ( 0.000000000000000000, 0.000000000000000000, 0.000000000000000000 ) ) ;
#312 = APPLICATION_CONTEXT ( 'configuration controlled 3d designs of mechanical parts and assemblies' ) ;
#313 = DIRECTION ( 'NONE',  ( 0.000000000000000000, 0.000000000000000000, 1.000000000000000000 ) ) ;
#314 = CIRCLE ( 'NONE', #133, 35.25000000000000711 ) ;
#315 = EDGE_CURVE ( 'NONE', #287, #68, #33, .T. ) ;
#316 = DIRECTION ( 'NONE',  ( 1.000000000000000000, 0.000000000000000000, -0.000000000000000000 ) ) ;
#317 = CARTESIAN_POINT ( 'NONE',  ( 0.000000000000000000, 0.000000000000000000, 19.50000000000000000 ) ) ;
#318 = ORIENTED_EDGE ( 'NONE', *, *, #231, .T. ) ;
#319 = CARTESIAN_POINT ( 'NONE',  ( 35.25000000000000000, 4.316879966994420283E-15, 0.000000000000000000 ) ) ;
#320 = VERTEX_POINT ( 'NONE', #223 ) ;
#321 = CC_DESIGN_APPROVAL ( #307, ( #122 ) ) ;
#322 = CARTESIAN_POINT ( 'NONE',  ( 0.000000000000000000, 0.000000000000000000, 10.00000000000000000 ) ) ;
#323 = ORIENTED_EDGE ( 'NONE', *, *, #112, .F. ) ;
#324 = DIRECTION ( 'NONE',  ( -0.000000000000000000, -0.000000000000000000, -1.000000000000000000 ) ) ;
#325 = CYLINDRICAL_SURFACE ( 'NONE', #274, 38.18999999999999773 ) ;
#326 = ORIENTED_EDGE ( 'NONE', *, *, #303, .F. ) ;
#327 = CC_DESIGN_DATE_AND_TIME_ASSIGNMENT ( #177, #397, ( #159 ) ) ;
#328 =( NAMED_UNIT ( * ) SI_UNIT ( $, .STERADIAN. ) SOLID_ANGLE_UNIT ( ) );
#329 = ORIENTED_EDGE ( 'NONE', *, *, #366, .F. ) ;
#330 = ORIENTED_EDGE ( 'NONE', *, *, #112, .T. ) ;
#331 = DATE_AND_TIME ( #172, #49 ) ;
#332 = ORIENTED_EDGE ( 'NONE', *, *, #80, .F. ) ;
#333 = EDGE_CURVE ( 'NONE', #19, #163, #106, .T. ) ;
#334 = VECTOR ( 'NONE', #406, 1000.000000000000000 ) ;
#335 = CALENDAR_DATE ( 2024, 20, 12 ) ;
#336 = ORIENTED_EDGE ( 'NONE', *, *, #259, .F. ) ;
#337 = ORIENTED_EDGE ( 'NONE', *, *, #350, .T. ) ;
#338 = DIRECTION ( 'NONE',  ( -0.000000000000000000, -0.000000000000000000, -1.000000000000000000 ) ) ;
#339 = PRODUCT_DEFINITION_FORMATION_WITH_SPECIFIED_SOURCE ( 'ANY', '', #27, .NOT_KNOWN. ) ;
#340 = EDGE_CURVE ( 'NONE', #99, #235, #183, .T. ) ;
#341 = AXIS2_PLACEMENT_3D ( 'NONE', #402, #22, #184 ) ;
#342 = DIRECTION ( 'NONE',  ( 1.000000000000000000, 0.000000000000000000, 0.000000000000000000 ) ) ;
#343 = CC_DESIGN_APPROVAL ( #283, ( #339 ) ) ;
#344 = CARTESIAN_POINT ( 'NONE',  ( 35.25000000000000000, 4.316879966994420283E-15, -10.00000000000000000 ) ) ;
#345 = DIRECTION ( 'NONE',  ( 1.000000000000000000, 0.000000000000000000, -0.000000000000000000 ) ) ;
#346 = EDGE_CURVE ( 'NONE', #47, #99, #382, .T. ) ;
#347 = FACE_OUTER_BOUND ( 'NONE', #195, .T. ) ;
#348 = LOCAL_TIME ( 14, 40, 4.000000000000000000, #368 ) ;
#349 = DIRECTION ( 'NONE',  ( 1.000000000000000000, 0.000000000000000000, 0.000000000000000000 ) ) ;
#350 = EDGE_CURVE ( 'NONE', #306, #68, #357, .T. ) ;
#351 = DIRECTION ( 'NONE',  ( 0.000000000000000000, 0.000000000000000000, 1.000000000000000000 ) ) ;
#352 = ORIENTED_EDGE ( 'NONE', *, *, #378, .F. ) ;
#353 = DIRECTION ( 'NONE',  ( -0.000000000000000000, -0.000000000000000000, -1.000000000000000000 ) ) ;
#354 = VERTEX_POINT ( 'NONE', #5 ) ;
#355 =( GEOMETRIC_REPRESENTATION_CONTEXT ( 3 ) GLOBAL_UNCERTAINTY_ASSIGNED_CONTEXT ( ( #85 ) ) GLOBAL_UNIT_ASSIGNED_CONTEXT ( ( #179, #143, #328 ) ) REPRESENTATION_CONTEXT ( 'NONE', 'WORKASPACE' ) );
#356 = DIRECTION ( 'NONE',  ( 0.000000000000000000, 0.000000000000000000, 1.000000000000000000 ) ) ;
#357 = LINE ( 'NONE', #63, #214 ) ;
#358 = CC_DESIGN_DATE_AND_TIME_ASSIGNMENT ( #331, #304, ( #122 ) ) ;
#359 = DIRECTION ( 'NONE',  ( 1.000000000000000000, 0.000000000000000000, 0.000000000000000000 ) ) ;
#360 = CARTESIAN_POINT ( 'NONE',  ( 0.000000000000000000, 0.000000000000000000, 0.000000000000000000 ) ) ;
#361 = CLOSED_SHELL ( 'NONE', ( #94, #243, #186, #277, #386, #190, #373, #142, #23, #10, #401, #266 ) ) ;
#362 = AXIS2_PLACEMENT_3D ( 'NONE', #115, #164, #167 ) ;
#363 = COORDINATED_UNIVERSAL_TIME_OFFSET ( 1, 0, .AHEAD. ) ;
#364 = ORIENTED_EDGE ( 'NONE', *, *, #84, .F. ) ;
#365 = PERSON_AND_ORGANIZATION ( #95, #176 ) ;
#366 = EDGE_CURVE ( 'NONE', #66, #287, #132, .T. ) ;
#367 = EDGE_LOOP ( 'NONE', ( #37, #130 ) ) ;
#368 = COORDINATED_UNIVERSAL_TIME_OFFSET ( 1, 0, .AHEAD. ) ;
#369 = DIRECTION ( 'NONE',  ( 1.000000000000000000, 0.000000000000000000, -0.000000000000000000 ) ) ;
#370 = AXIS2_PLACEMENT_3D ( 'NONE', #52, #29, #349 ) ;
#371 = CARTESIAN_POINT ( 'NONE',  ( 31.59999999999999787, 3.869883885305635257E-15, -10.00000000000000000 ) ) ;
#372 = PLANE ( 'NONE',  #281 ) ;
#373 = ADVANCED_FACE ( 'NONE', ( #250, #221 ), #385, .F. ) ;
#374 = CARTESIAN_POINT ( 'NONE',  ( 0.000000000000000000, 0.000000000000000000, 10.00000000000000000 ) ) ;
#375 = DIRECTION ( 'NONE',  ( 0.000000000000000000, 0.000000000000000000, 1.000000000000000000 ) ) ;
#376 = AXIS2_PLACEMENT_3D ( 'NONE', #193, #1, #67 ) ;
#377 = APPROVAL_DATE_TIME ( #89, #251 ) ;
#378 = EDGE_CURVE ( 'NONE', #12, #127, #247, .T. ) ;
#379 = CYLINDRICAL_SURFACE ( 'NONE', #25, 35.25000000000000711 ) ;
#380 = CARTESIAN_POINT ( 'NONE',  ( -35.25000000000000711, 0.000000000000000000, 19.50000000000000000 ) ) ;
#381 = FACE_OUTER_BOUND ( 'NONE', #107, .T. ) ;
#382 = LINE ( 'NONE', #34, #125 ) ;
#383 = DIRECTION ( 'NONE',  ( -0.000000000000000000, -0.000000000000000000, -1.000000000000000000 ) ) ;
#384 = CARTESIAN_POINT ( 'NONE',  ( 0.000000000000000000, 0.000000000000000000, -10.00000000000000000 ) ) ;
#385 = PLANE ( 'NONE',  #14 ) ;
#386 = ADVANCED_FACE ( 'NONE', ( #191 ), #103, .T. ) ;
#387 = APPLICATION_PROTOCOL_DEFINITION ( 'international standard', 'config_control_design', 1994, #312 ) ;
#388 = ORIENTED_EDGE ( 'NONE', *, *, #166, .F. ) ;
#389 = ADVANCED_BREP_SHAPE_REPRESENTATION ( 'ring', ( #217, #234 ), #355 ) ;
#390 = MECHANICAL_CONTEXT ( 'NONE', #312, 'mechanical' ) ;
#391 = ORIENTED_EDGE ( 'NONE', *, *, #166, .T. ) ;
#392 = AXIS2_PLACEMENT_3D ( 'NONE', #322, #124, #189 ) ;
#393 = APPROVAL_ROLE ( '' ) ;
#394 = DIRECTION ( 'NONE',  ( 0.000000000000000000, 0.000000000000000000, 1.000000000000000000 ) ) ;
#395 = CYLINDRICAL_SURFACE ( 'NONE', #120, 38.18999999999999773 ) ;
#396 = EDGE_LOOP ( 'NONE', ( #268, #318, #42, #161 ) ) ;
#397 = DATE_TIME_ROLE ( 'classification_date' ) ;
#398 = PLANE ( 'NONE',  #199 ) ;
#399 = AXIS2_PLACEMENT_3D ( 'NONE', #374, #408, #219 ) ;
#400 = ORIENTED_EDGE ( 'NONE', *, *, #227, .F. ) ;
#401 = ADVANCED_FACE ( 'NONE', ( #41 ), #395, .T. ) ;
#402 = CARTESIAN_POINT ( 'NONE',  ( 0.000000000000000000, 0.000000000000000000, 10.00000000000000000 ) ) ;
#403 = LINE ( 'NONE', #212, #87 ) ;
#404 = CALENDAR_DATE ( 2024, 20, 12 ) ;
#405 = AXIS2_PLACEMENT_3D ( 'NONE', #187, #117, #21 ) ;
#406 = DIRECTION ( 'NONE',  ( -0.000000000000000000, -0.000000000000000000, -1.000000000000000000 ) ) ;
#407 = VECTOR ( 'NONE', #162, 1000.000000000000000 ) ;
#408 = DIRECTION ( 'NONE',  ( -0.000000000000000000, -0.000000000000000000, -1.000000000000000000 ) ) ;
#409 = FACE_OUTER_BOUND ( 'NONE', #134, .T. ) ;
ENDSEC;
END-ISO-10303-21;
